Esta cancion se llama realmente 'As time goes by' y 
vale la pena ver esta gran pelicula solo para 
escucharla. Esta cancion fue traducida al español y fue
llamada 'A traves de los años' y es la que les presento 
a continuacion:


Estrofa 1

   Mim7      La
Quisiera revivir

     Mim       La7 
el tiempo que paso

  Lam           Do7
y asi poder sentir

      Do#7       Fa#m    Si7 
los besos y las mil caricias

           Sim   Mi7
que tuve ayer



Estrofa 2

Mim7            La
Quisiera yo poder

     Mim           La7
tu amor reconquistar

  Lam            Do7
y asi volver a ser

       Do#7     Fa#m     Si7
feliz como lo fuera entonces

        Sim   Mi7
mi corazon



Estrofa 3

Do
Pero mi amor, eso no puede ser

Mi7
un cruel dolor me da la realidad

Fa#m7
y me hace ver

Si7
que el tiempo nunca pasa en vano

Re7
jamas



Estrofa 4

    Mim7        La 
Temiendo recordar

     Mim            Lam
mis sueños y ansiedad

Lam                   Do7
mas nunca he de olvidar

     Do#7         Fa#m       Si7
los sueños y las mil caricias

           Sim   Mi7
que tuve ayer



  E |-------------------------|----------------------------|
  B |-2-3-2-------------------|-2-5-3-2---2----------------|
  G |-------4-2-4-------------|---------4------------------|
  D |-------------------------|----------------------------|
  A |-------------------------|----------------------------|
  E |-------------------------|----------------------------|

  E |---5-4-2---2-------------|-4-7-5-4-2-4----------------|
  B |-5-------5---------------|----------------------------|
  G |-------------------------|----------------------------|
  D |-------------------------|----------------------------|
  A |-------------------------|----------------------------|
  E |-------------------------|----------------------------|


Se repite la estrofa 3

Por ultimo la estrofa 4 con una variacion al final:


    Mim7        La 
Temiendo recordar

     Mim            Lam
mis sueños y ansiedad

Lam                   Do7
mas nunca he de olvidar

     Do#7           Fa#m     Si7
Tu amor aunque los años pasen

Fa#m           
lo juro (silencio)

Si7                Mi7
mi amoooooooooor



Mim7

E---
B---
G---
D---
A-2-
E---


Fa#m7

E-2--
B-2--
G--3-
D-2--
A---4
E-2--