Bueno, desde aqui esta la cancion carrozas de fuego
espero que les guste, a ver.....

1 ------------------------------------------
2 ------------------------------------------
3 -------0--2--0-------------0--2--0--------
4 ----3----------2--------3-----------------
5 --3-------------------3-------------------
6 ------------------------------------------

1 ------------------------------------------
2 ------------------------------------------
3 -------0--2--0----------------------------
4 ----3----------2------2--3--2-------------
5 --3---------------------------3-3---------
6 ------------------------------------------

1 ------------------------------------------
2 -1-0-----0-------------1-0------0---------
3 -----2-0---0-2---0---------2--0---0-------
4 ---------------3--------------------------
5 ------------------------------------------
6 ------------------------------------------

1 ------------------------------------------
2 -1-0-----0--------------------------------
3 -----2-0---0-2---0------------------------
4 ---------------3--------2-3-2-------------
5 -------------------------------3-3--------
6 ------------------------------------------

He aqui ha terminado el show!! no lloren, es solo 
una cancion, triste, pero una cancion!
Cualquier pregunta manden un mail a lombarda00@mail.com