Esta la intro 100% correcta!!
que la disfruten
SALUDOS A TECATE B.C,


D|-------------------------------------------|
A|------5-5-4-4-3-3-4-4-5-5-4-4-3-3-4--------|
E|------3-3-3-3-3-3-3-3-3-3-3-3-3-3-3--------|

D|------5-5-4-4-3-3-4-4-5-5-4-4-3-3-4--------|
A|------3-3-3-3-3-3-3-3-3-3-3-3-3-3-3--------|
E|-------------------------------------------|


D|-------------------------------------------|
A|------5-5-4-4-3-3-4-4-5-5-4-4-3-3-4--------|
E|------3-3-3-3-3-3-3-3-3-3-3-3-3-3-3--------|


D|------5-5-4-4-3-3-4-4-5-5---------|
A|------3-3-3-3-3-3-3-3-3-3---------|
E|----------------------------------


D|-------------------------------------------|
A|------5-5-4-4-3-3-4-4-5-5-4-4-3-3-4--------|
E|------3-3-3-3-3-3-3-3-3-3-3-3-3-3-3--------|

ETC,