MODIFICACION A LA TRANSCRIPCION DE:
Alonso Torres (alpharo@hotmail.com)
********************************************************************

  Sal-ve rei-na de los cie-los, y se-ño-ra de los án-ge-les
|-----3--1---0--------------------3--5--3--1---0--0---1----|
|-1-------------3---1---1---1---1------------------------3-|
|----------------------------------------------------------|
|----------------------------------------------------------|
|----------------------------------------------------------|
|----------------------------------------------------------|



  Sal-ve ra-íz Sal-ve puer-ta, que dió pa-soa nues-tra luz
|-0---0--0--2---3--5--5---------0---2--3---3---2----2---3--|
|---------------------------3------------------------------|
|----------------------------------------------------------|
|----------------------------------------------------------|
|----------------------------------------------------------|
|----------------------------------------------------------|


Espero mandar más próximamente y/o corregir algunas otras.Vic

Do       Fa            Lam    Sol
¡Salve, reina de los Cielos

Do   Fa           Sol       Sol7
y Señora de los ángeles!

 Do        Re         Sol     Mim
¡Salve, raíz, Salve puerta

        Do       Re      Sol   Sol7
que dio paso a nuestra luz!(2)


Do     Fa              Lam  Sol
Alégrate, Virgen Gloriosa,
Do        Fa            Sol    Sol7
de entre todas la más bella,
Do      Re           Sol      Mim
¡Salve Madre de la Iglesia,
         Do     Re     Sol
ruega a Cristo por nosotros!

 Do        Re         Sol     Mim
¡Salve, raíz, Salve puerta

        Do       Re      Sol
que dio paso a nuestra luz!



Espero no molestar con la corección y mandaré la tablatura.Schz5