Intro:


  E-------------------|
  B-------------------|
  G---------------0---|  <--- X2
  D------------4------|
  A---2-----2---------|
  E------0------------|

  E|---------------------0------------|-----------------0-----|
  B|------------------0-----0---------|--------------0--------|
  G|---------------0------------0-----|-----------0-----------|
  D|------------4------------------4--|--------4--------------|
  A|---2-----2------------------------|-----2-----------------|
  E|------0---------------------------|--0--------------------|
                                      |--- un rasgeo lento ---|



.....AQUI EMPIEZAN LAS ZAMPOÑAS....





 Mim                       Re                              Mim
    Padre nuestro tú que estás       en los que aman la verdad
                      Do  Sol*--3--2--MIm                        Do  Sol*-
 en el reino que nos prometio            llegue pronto a nuestro corazón

3--2->Mim         Do                   Sol
       que el amor que tu hijo nos dejó
            Mim      Re     Mim
       el amor, habite en nosotros.






 Mim                   Re                                    Mim
     en el pan de la unidad               Cristo danos tu la paz
                   Do     Sol*--3--2--Mim                    Do    Sol*---
     y olvídate de nuestro mal           si olvidamos el de los demás
 --->Mim       Do
        no permitas que caigamos
                 Sol      Mim
        en tentación No Señor
                Re       Mim
       y ten piedad del mundo.


_________________________________________________________________






   * El arreglo:

     es un bajeo que se hace tocando en el ultimo rasgeo en Sol
        enseguida --3--2-- de la 6ta y enseguida Mim. y suigues cantando...



         |--- SOL ---|        |--Mim--|

        E|-----3-----|        |-------|
        B|-----3-----|        |-------|
        G|-----0-----|        |-------|--->se sigue cantando
        D|-----0-----|        |---2---|
        A|--2--------|        |---2---|
        E|-----3-----|--3--2--|-------|






Sugerencias a lee_wolker@hotmail.com

   QUE DIOS LOS BENDIGA CARNALES¡¡¡