Armonizada como en su disco

   C           Em          Dm D7/F#      G   
E ------------------------------------------|
B -1--------1--0--------0-------3-1-1-3--0--|
G -0------0----0------0----2--2----------0--|
D ----2-3---------2-3------3-------------0--|
A -3-----------2----------------------------|
E ----------------------------------2----3--|


  Do				   Mim  La7
  Mi unicornio azul ayer se me perdió
Rem                Sol7  Do
  pastando lo deje      y desapareció
  Em 					Dm7/F  Dm7/E
  cualquier información bien la voy a pagar
Dm		      D7		   G7sus4  G7
  las flores que dejó no me han querido hablar.



  Do                                Mim  La7
  Mi unicornio azul ayer se me perdió
Rem		     Sol7 Do
  no se si se me fue,     no se si se extravío
  Em                                   Dm7/F  Dm7/E
  y yo no tengo más que un unicornio azul
Rem                     Sol7  Do		     
  si alguien sabe de el,    le ruego información
  Lam			      Re#
  cien mil o un millón yo pagaré
  Do		 Lam  Rem7                Sol       Do
  mi unicornio azul, se me ha perdido ayer, se fue.


   C           Em          Dm D7/F#      G     C   
E -----------------------------------------------|
B -1--------1--0--------0-------3-1-1-3--0--1--1-|
G -0------0----0------0----2--2----------0-----0-|
D ----2-3---------2-3------3-------------0-----2-|
A -3-----------2-------------------------------3-|
E ----------------------------------2----3-----3-|


  Do                             Mim  La7      
  Mi unicornio y yo hicimos amistad
Rem		   Sol7 Do
  un poco con amor,    un poco con verdad
  Em					Dm7/F  Dm7/E 
  con su cuerno de añil pescaba una canción
Dm	            D7		G7sus4  G7
  saberla compartir era su vocación.


  Do				   Mim  La7
  Mi unicornio azul ayer se me perdió
Rem               Sol7 Do
  y puede parecer     acaso una obsesión
  Em				       Dm7/F  Dm7/E
  pero no tengo mas que un unicornio azul
Rem		       Sol7 Do
  y aunque tuviera dos,     yo solo quiero aquel
  Lam				Re#
  cualquier información la pagaré
  Do		 Lam  Rem7                Sol       Do
  mi unicornio azul, se me ha perdido ayer, se fue.


   C           Em          Dm D7/F#      G   
E ------------------------------------------|
B -1--------1--0--------0-------3-1-1-3--0--|
G -0------0----0------0----2--2----------0--|
D ----2-3---------2-3------3-------------0--|
A -3-----------2----------------------------|
E ----------------------------------2----3--|