(guitarra distorsionada)

e-|-----------------------------------|-
B-|-----------------------------------|-
G-|-----------------------------------|-
D-|-----1-3------1-3-------1-3-----1-3|-
A-|-1-1----------------1-1------------|-
E-|----------1-1----------------1-1---|-


Intro
	  La#              Fam            La#          Fam
e-|-8-8-8-8-6-6-6-4-4-4-1---1-1-1-4/6-4/6--4/6-4/6----|--|
B-|---------------------------------------------------------|--|
G-|---------------------------------------------------------|--|
D-|---------------------------------------------------------|--|
A-|---------------------------------------------------------|--|
E-|---------------------------------------------------------|--|

	  La#              Fam            La#          Fam
e-|-8-8-8-8-6-6-6-4-4-4-1---1-1-1-4/6-4/6--4/6-1------|--|
B-|---------------------------------------------------------|--|
G-|---------------------------------------------------------|--|
D-|---------------------------------------------------------|--|
A-|---------------------------------------------------------|--|
E-|---------------------------------------------------------|--|

   La#           Fam       La#               Fam
Yo no lo sé todavía, lo que me hiciste sentir
Sol#             La#             Dom
   es como la fiebre cuando quema
   La#          Fam           La#               Fam
Si la nube que arrastras llegara a un sitio final
Sol#                  La#            Dom
   ¿cuánto tiempo guardas un secreto?

  La#           Fam
Será por ti, será por mí,
  La#          Fam
será por todo lo que fuimos
La#         Fam        La#  Fam
  hasta el amanecer

(Intro)

Desde el monte que abrazo, camino sin explorar
¿calmará la lluvia este desierto?

Con el alma en las manos, tratando de descubrir
¿aué será de nuestro cuerpo alado?

Será por ti, será por mí,
será por todo lo que fuimos
hasta el amanecer

Será por ti, será por mí,
será por todo lo que fuimos
hasta el amanecer
hasta el amanecer

Será por ti, será por mí,
será por todo lo que fuimos
hasta el amanecer
hasta el amanecer