ACORDES:> Bm A G D F#

MODIFICACION A LA TRANSCRIPCION DE
Matías (matias.punk_rock@hotmail.com)
**********************************************************************

Todos los acordes me parece que estan bien por lo menos para
tocar con una guitarra criolla a ritmo de la chacarera.

intro

Bm-A-G-D-F#-Bm-G-F#-Bm

e|-------------------------------------------------------------|
B|----------5--------------------------------------------------|
G|-4--4-6-7---7-6---4--4---------------------------------------|
D|----------------7------7-5-7--------4-5---7----------4-5-4---|
A|-----------------------------5-7--7-----7---5---7--7---------|
E|----------------------------------------------7--------------|

e|-------------------------------------------------------------|
B|------------5------------------------------------------------|
G|---4--4-6-7---7-6---4--4-------------------------------------|
D|-7----------------7------7-5-7--4----------4-5-----------4---|
A|----------------------------------7-5-7--7-----7-5-4---7-----|
E|-----------------------------------------------------7-----7-|

|1|
   Sim                      La
De chiquito guitarreando descubrí mi vocación
     Sol                        Re
de cantar y padecer a viva voz
      Fa#                           Sim
la avaricia, la ignorancia, la tragedia y la ambicion
       Sol                    Fa#
me llevaron a escribir esta cancion.

|2|

      Sim                        La
Los amigos las pitadas y el aguante del balón
  Sol                            Re
ensayo del estudio y la pasión
   Fa#
de desear que haya sin cuentas,
    Sim
cientos miles y un millón,
        Sol             Fa#              Sim
de gargantas que acompañan mi cancion,

Intro

|1|
Con arreglos nauseabundos
que van contra la razón,
pretencioso, sabio, chorro, estafador
empresarios de la noche,
dueños de la información,
van dispuestos a lucrar con tu sudor,
|2|
empleados estatarios
que no cumplen con su función,
inspectores de la tranza, inmorales, sin perdon
hoy no duermen 100 fantasmas
desde lo de cromangnon,
que se caguen la Puta q los pario.

|3|
      La                 Re
Y les tengo malas noticias,
             La             Re
por que la vida de estafador,
           Fa#                Sim
tiene un techo y nuestro sueño,
           Sol            Fa#           Sim
tendra altibajos pero techo no señor.

solo

|1|
una pila de ignorantes
que gobiernan la nación
que conciben sexo y alguna pasion
pues estas son las leyes de la legalizacion
ponen fajas te clausuran la cancion.

|2|
hoy resulta que han prohibido ejercer mi profesion,
da lo mismo ser artista o cagador...
y duermo poco por amor,
pero es que sigo siendo un cantautor...

|3|
Y les tengo malas noticias,
por que la vida de estafador,
tiene un techo y nuestro sueño,
tendra altibajos pero techo no señor.

(repite los ultimos acordes)

tendra altibajos pero techo no señor,
tendra altibajos pero techo no señor.

Aguanten las pastillas locooooooooooooo