MODIFICACION A LA TRANSCRIPCION DE:
Sebastian (rsrauzi@yahoo.com.ar)
**********************************************************************

  e-----------------------1-0---------------------
  B--------1--------3---------3-1-0h1p0-----------
  G----------2--------0------------------2-0------  x4
  D------2--------0-------------------------------
  A----0------------------------------------------
  E-------------3---------------------------------

Lam       Sol                Rem             Sol
Desde la postura del que dice de mas y hace de menos,
Lam       Sol                Rem             Sol
un volcán estalla cada tanto en mi
Lam       Sol                Rem             Sol
a modo de protesta te molesta que piense en esta
Lam       Sol                Rem             Sol
Guerra de propaganda contra identidad


Lam       Sol                Rem              Sol
Para la trampa un plan b, Vos No no queres ser asi
Lam       Sol                Rem              Sol
Por guita baila el mono y vos no tenés swing
Lam       Sol                Rem              Sol
Y el miedo que te meten a vivir parece ya no tener vuelta atrás
Lam       Sol                Rem              Sol
Y tu grano de arena nunca tapa el mar

(B)
Fa                      Sol                            Lam
Metiendo la carnada están, sonríen con behemencia cruel
           Fa             Sol
Te quieren vender el buzón
Fa                        Sol                     Lam
Que un libro no te deja más que una cumbiamba loca
           Fa            Sol
Y vos mordes a todo trapo

Y lo peor es que no te das cuenta!!!

Am   G   Dm  Dm (base x4)

Riff
E|----------------------------------------|
B|-------5---------------/6-6-6-5-6/8-8---|
G|-------5---7—5—7b—7b--------------------|
D|---/7-----------------------------------|    x4
A|----------------------------------------|
E|----------------------------------------|

(A)
Propongamos no romper esta cadena
Siendo firmes al tratar con la conciencia
La traición a un pueblo llama sentir pena
Porque creo y no exagero eso es demencia

(A)
Hace el hombre honrado vista gorda
Debe ser el bicho de mala aventura
Mundo loco si los hay ni los del borda
Hacen las cosas que hace más de un cura

(B)
Hasta en el cielo debe haber una que otra injusticia
Me digo y se que juego mal
Pero tampoco da el talón de tanta cotidianeidad
no puedo contra tu maldad

(B)
Y aunque yo sepa que, el lado oscuro va a ganar
Sabes con quien vas a pelear

Mas de una vez a vas a soñar conmigo!!!

Riff x4  (acompañado con trompetas)