ACORDES:> Dm Am G

La cancion se toca en semicorcheas y se ataca
principalmente las cuerdas de abajo.
El Dm y Am son con tónica en 5to traste y el G en 3ero.

e|-----------|
B|-----------|
G|-----------|
D|--0-2-3-5~-|<-- con wawa
A|-----------|
E|-----------|



      Rem                    Sol
e|----------5-------5----|--8-7-------------------|--|
B|--------6-------6------|------8-------------6-5-|--|
G|----7-7-----7-7--------|--------7---7-7-7-5-----|--|
D|-----------------------|------------------------|X3|
A|-----------------------|------------------------|--|
E|-----------------------|------------------------|--|

1)
Rem
Crees saber
                  Sol
que esta a tu alcance y no lo esta
Rem
se muestra infiel
       Sol
espera su oportunidad
Rem
si pinta bien
              Sol
del suelo empiezan a brotar
Rem
si pinta mal
            Sol
se pierden en la oscuridad

      Rem                    Sol
e|----------5-------5----|--8-7-------------------|--|
B|--------6-------6------|------8-------------6-5-|--|
G|----7-7-----7-7--------|--------7---7-7-7-5-----|--|
D|-----------------------|------------------------|X3|
A|-----------------------|------------------------|--|
E|-----------------------|------------------------|--|

1)
te dicen ser
quienes te vienen a salvar
quieren morder
temen que puedas escapar
van a comer
de tu plato hasta reventar
tus venas van
a darles algo que tomar

2)
Lam            Sol
Y a vos te duelen mas
   Rem           Sol
los tres metros al vallado  Riff
Lam             Sol
que si en la cuenta hay mas
   Rem                Sol
o menos que el mes pasado Riff
Lam        Sol
creyéndote campeón
      Rem               Sol
los buitres buscan el pique Riff
Lam           Sol
la tribu la pongo yo

   Rem              Sol
a ver quien es el cacique

Solo sobre esta base:
(Dm G) x4

      Rem                    Sol
e|----------5-------5----|--8-7-------------------|--|
B|--------6-------6------|------8-------------6-5-|--|
G|----7-7-----7-7--------|--------7---7-7-7-5-----|--|
D|-----------------------|------------------------|X3|
A|-----------------------|------------------------|--|
E|-----------------------|------------------------|--|

1)
Ahí están
quieren ganar sin laburar
así les va
siguen buscando a quien cagar

2)
Y a vos te duelen mas
los tres metros al vallado
que si en la cuenta hay mas
o menos que el mes pasado
creyéndote campeón
los buitres buscan el pique
la tribu la pongo yo
a ver quien es el cacique

2)
Y vos queres zafar
de tanta baba en tu asado
el que ofendido esta
mañana estara enojado
si sos honesto a infiel
la gente se te enamora
si supieras lo que es
vendrias por colectora.

Solo final:
Am G Dm G Am G Dm (A5 A5 A5 G5 C5 B5)<--golpes exactos

e|-----------|
B|-----------|
G|-----------|
D|-----------|
A|-----------|
E|--8-7-5----|



Esta es mi primer transcripción, espero les guste.
Mas que yo, la saco mi profe marce asique gracias a el.