Saxo Intro: C-F-C-G

E----0--3-3h5-3--1--0-----------0-3-3h5-3--1--0--3-|
B-1-------------------1--3-3-1---------------------|
G--------------------------------------------------|


Do                           Fa
Yo sé que fieros y hambrientos
Do                    Sol
dos ojos en ti clavados
Do                       Fa
siguiendo van tus cuidados
Do                   Sol
miradas y movimientos.

Do                     Fa
Por más que sigan atentos
Do                   Sol
los giros de tu pasión
Do                     Fa
podrá ser que la ocasión
Do                    Sol
sin aprovechar se quede.

Sol
Pues vigilarte no pueden
Am                  C-C-G-Am-C
las telas del corazón.
Sol                         Lam
Pues vigilarte no pueden...
  G5                 C
las telas del corazón.

Saxo Intro


Do                             Fa
Yo sé que el labio de un hombre
Do                      Sol
por tu amor capaz de todo
Do                    Fa
recoge a montones lodo
Do                        Sol
para volcarlo en mi nombre.

Do                         Fa
Me callo sin que me asombre
Do                   Sol
la bajeza de su acción
Do                  Fa
de su vil difamación
Do                       Sol
si queda rastro, que quede.

Sol
Yo sé que manchar no puede
Am                    C-C-G-Am-C
mi nombre en tu corazón.
Sol                           Lam
Yo sé que manchar no puede....
     G5              C
mi nombre en tu corazón.

SOLO 1 [2:30]

BASE: C-F-C-G-C-F-C-G-G-Am--C-C-G-Am-C--G-Am-G5 .La base es

la misma que toda la cancion.

E---------------------|---------------|
B---------------------|---------------|
G-----5---7b-7-5-7--5-|---------5-7-5-|
D-5-7-----------------|-----5-7-------|
A---------------------|-5-7-----------|
E---------------------|---------------|

E----------|--7-8-7---------------8--10b(12)-------10-8--8-7-8--------|
B-8br-6-8*-|-------8-5-6-5--5h6p5------------10----------------8/10-8-|
G----------|------------------------------------12--------------------|
D----------|----------------------------------------------------------|
A----------|----------------------------------------------------------|
E----------|----------------------------------------------------------|

E--------------------------|-------------------15*-|
B--------------------------|---------------6-------|
G-7-7p5--5--7p5--5--7p5--5-|-----------5-7---------|
D------7-------7-------7---|-------5-7-------------|
A--------------------------|---5-7-----------------|
E--------------------------|-8---------------------|

E-10-12b-10p8-10*-5-|-------5-------8-7-5-------5*-|
B--------------------|-----5---8---5-------8-5-8----|
G--------------------|-5-7-------7------------------|
D--------------------|------------------------------|
A--------------------|------------------------------|
E--------------------|------------------------------|

E-------15-h17-15-h17-17b(18)(17)(19)-17-15-12br(14)-10-8-10-7*-|
B---------------------------------------------------------------|
G-12-12---------------------------------------------------------|
D---------------------------------------------------------------|
A---------------------------------------------------------------|
E---------------------------------------------------------------|

E--------15*-8--|--------15--------------------------|
B-12-h13---------|-15b(17)---15br(17)-13-15b(16)(17)*-|
G----------------|------------------------------------|
D----------------|------------------------------------|
A----------------|------------------------------------|
E----------------|------------------------------------|

Saxo Intro


C5                        F5
De ojos, mano y labio impío,
C5                 G5
apostados en acecho
C5                   F5
para robarte del pecho
C5                G5
tu corazón todo mío.

Do                 Fa
Lucharán en el vacío
Do                   Sol
sin lograr su pretensión
Do                  Fa
hasta que de mi pasión
Do                    Sol
liberada por Dios quedes

Sol
Porque ni tú misma puedes
Am                  C-C-G-Am-C
mandar en tu corazón.
Sol                          Lam
Porque ni tú misma puedes....
     G5              C
mandar en tu corazón.

Saxo Intro

SOLO 2 [4:39]

E--------15*-8---10-10-10b(12)-10p8-10*-|-------5-------8-7-5-------5*-|
B-12-h13---------------------------------|-----5---8---5-------8-5-8----|
D----------------------------------------|-5-7-------7------------------|
A----------------------------------------|------------------------------|
E----------------------------------------|------------------------------|

E-15-h17-15-h17-17b(18)(17)(19)-17-15-12br(14)-10-8-10-7*-|
B---------------------------------------------------------|
G---------------------------------------------------------|
D---------------------------------------------------------|
A---------------------------------------------------------|
E---------------------------------------------------------|

E--------15*---|---------------------------15*-|
B-12-h13-------|-12-13-15-15b(17)*--15b(17)----|
G--------------|-------------------------------|
D--------------|-------------------------------|
A--------------|-------------------------------|
E--------------|-------------------------------|