Intro: Em-D-C-D-Em x2

Intro(esto lo hace silvando, pero así se hace con la guitarra)

E-----7------------7------------7----------------------------
B-------10-8-10------10-8-10------10-8-10--------------------
G--9------------9------------9------------9------------------
D------------------------------------------------------------
A------------------------------------------------------------
E------------------------------------------------------------

E--------------7---------7----7----------7-------------------
B------9---------10-8-10--------10-8-10-----10--8--7---------
G--9-7----7-9-----------------------------------------9------
D------------------------------------------------------------
A------------------------------------------------------------
E------------------------------------------------------------

Mim
Compañero de recuerdos,
     Re                    Do
guardados en una memoria, que
      Re            Mim
espero no perder...
Mim                     Re                   Do
En estas tres paredes, con una casi transparente
    Re                  Mim
por la que se puede ver...
Mim                Re                Do
A esos habitantes, en otras habitaciones
     Re                       Mim
escribiendo cartas como éstas,
Mim
en las que bien, describen,
Re                     Do
que clase de apuesta perdiendo,
Re               Mim
para estar aquí...
       Do
y piden...

Mira la luz por mí...

"/ este símbolo es un silencio
hay que frenar las cuerdas con las mano izquierda"

E---------------------------------------
B---------------------------------------
G---------------------------------------
D---------------------------------------
A--2--2--/--2--2---2--2--2--2--2--2-----
E--0--0--/--0--0---0--3--0--0--3--0-----

E---------------------------------------------------------
B---------------------------------------------------------
G---------------------------------------------------------
D--7--9--7--9---7--7--9-7--7--9--5--7--5--7--7--9--7--9---
A--5--5--5--5---5--5--5-5--5--5--3--3--3--3--5--5--5--5---
E---------------------------------------------------------

E--------------------------
B--------------------------
G--------------------------
D--------------------------
A-2--2--2--2---2—-2—-2—-2--
E-0--0--3--0---0—-0--3--0--    x2

Mira la luz por mí....


Te quiero contar,
Por esta vía papel,
Que a veces tengo muchas ganas de morir,
Pero me la tengo que Bancar,
Sabíamos los dos,
Que esto así iba a terminar...
Te juro que voy a resistir,
Tengo recuerdos que todavía me ayudan a seguir
Y te prometo que juntos vamos a volver a estar
El día que me dejen salir...

Pero mientras tanto...

Mira la luz por mí....
Mira la luz por mí....