ACORDES:> Em C D G B7

Intro: Em - C - D - G

Punteo en Em
e|-----------------|
B|----------8------|
G|-9-9--7-9---9-9--| X2
D|-----------------|
A|-----------------|
E|-----------------|

e|---------------7-10-7---------------|
B|----------8-10--------10-8----------|
G|-9-9--7-9------------------9-7--9-9-|
D|------------------------------------|
A|------------------------------------|
E|------------------------------------|

e|-----------------|
B|----------8------|
G|-9-9--7-9---9-9--| X2
D|-----------------|
A|-----------------|
E|-----------------|

e|---------------7-10/12-|
B|----------8-10---------|
G|-9-9--7-9--------------|
D|-----------------------|
A|-----------------------|
E|-----------------------|

    Mim       Do        Re         Sol
1) Como empezar a leer no hay apertura.
Como tildar a alguien soberbio no hay peor tilde.
Como maestra la mejor es la lectura.
Como primera condición ser bien humilde.


1) Porque leer es como teletransportarse
Como un interno murmullo
es como amar es entregarse
como hacer mio lo tuyo

     Do                         Re                  Mim      Mim
2) Con mis pupilas hambrientas deboro copia tras copia
  Do                            Re                  Mim      Mim
Mente y emosiones filtran, formo ideas propias
  Do                            Re                  Mim      Mim
Abierto a leer estoy todo cuando se lea
  Do                            Re                  Si7
Mi consciencia filtra y formo mi propia ideaaaa!!

     Sol                        Re
3) Al leer cuanto se pueda y escribir que ese sea el ocio
  Mim                       Do          Re
Que para el sistema cada ignorante es negocio
Que alcohol que paco y falopa que esta cita libertad
El sistema levanta copas, ya dormida esta la sociedad

1) Como empezar a escribir no hay aventura..
Como abismarse al interior no hay mas abismo.
Como escalera la mejor es la escritura..
Como primera religion "CATARSISISMO".

1) Porque escribir es..
Como romper el hechizo
Como saltar al vacio
Como arreglar al sumizo
Como hacer tuyo lo mio

2) La madera absorve rios de tinta bruja!
Enviados hoy por la consciencia misma!
Una mano artista las ideas dibujan!
Mente y emosiones actuan de prismaa!!

3) A leer cuando se pueda
Y a escribir que ese sea ocio
Que para el sistema cada ignorante es negocio
Que alcohol que papa y paloma
Que esta cita libertad
Que el sistema levanta copas
Ya dormida esta la sociedaaad..