Bueno gente,otra vez yo pero esta vez con un tema
que no creo que este en el proximo cd de las pastillas "Crisis.+"
Es un tema escrito por el bochi
que va a dedicado a su hijo,nacido el año pasado.
Aaaa!,ojo que es todo punteado,no es dificil pero hay q agarrarle la mano
Cualquier cosa les dejo el msn ;)

Paaaro@live.com

Riff 1

E-------------------------------------------------------------0------
B-----------------------------------------------------------0-------0
G-----5---------4-------5---------4-------5-----------0---0-------0--
D---5-----4---5---5---5-----4---5---5---5-----4---5------------------
A-3-----------------3-----------------3------------------------------
E-------2---3-------------2---3-------------2---3---1---0-------0----

Riff 2

E----------------------------------------------------------------------
B-----------------------------------------------------------3-------3--
G-----5---------4-------5---------4-------5-----------0---0---0---0---0
D---5-----4---5---5---5-----4---5---5---5-----4---5--------------------
A-3-----------------3-----------------3-------------2------------------
E-------2---3-------------2---3-------------2---3-------1-------1------

Riff 3

E----------------------------------------------------------------
B----------------------------------------------------------------
G---0---0---0-------0---0---0-------0---0---0---0---0---0---0---0
D----------------------------------------------------------------
A---------2-----3---------2-----3---------2---0---3---2---0---5--
E-3---1-------1---3---1-------1---3---1--------—-----------------


Intro: Riff 1 – Riff 2 – Riff 3


Riff1
Justo entienderon todo cuando no habia mas nada que entender,
la gloria a veces sabe bastante incierta.
Riff 2
Intentando ponerle un apodo a eso que bien sabe llamarse amor.
En cierta forma dandose tregua.
Riff 3
Y uno mas uno dio tres.

Riff 1
Comprobando la teoria de que es factible envejecer
tantos años como la noche convenga
Riff 2
Diendose cuenta un buen dia que abotonarse tambien puede ser
calor, sustento, refugio, comida.
Riff 3
Y uno mas uno dio tres.

Riff 1
Cuando se expande el ombligo
la matematica pende de un hilo,
Riff 2
y vos con una regla en la mano
contando semanas.
Riff 3
Y uno mas uno da tres.


Final: Riff 3 x2