ACORDES:> MIm LAm SIm DOadd9 SOL DO RE RE5

(Versión acústica)

______________________________________________________

Referencias:
r= rasgueo y apaga sonido con palma
p= pulgar

Re5:
      e|---5---      e|---5---
      B|---3---      B|---3---
      G|---0---   o  G|---2---
      D|---4---      D|---0---
      A|---5---      A|---5---
      E|---X---      E|---X---
______________________________________________________


Si quieren "puntear" la introducción de este tema, deben tocarlo
así (estos se repiten en parte de las estrofas también):

            ______ Mim ____   __________ Lam ___________
                 r        r   p       r                r
e|---0--0-|------0-----0--0--------0--0--------------0-0--|
B|-0------|------0--0-----0---1-------1-----------1----1--|
G|--------|------0--0-----0---2-------2---------2------2--|
D|--------|------2--2-----2---2-------2-------2--------2--|
A|--------|---2-----------2------0--------0------------0--|
E|--------|-0-------------0-------------------------------|

   ____ Sim ____  DOadd9 Mim
         r  p       r     p
e|-------2-----2----3--------|
B|----3--4--3-------3-----0--|
G|----4--4--4-------------0--|
D|-------4--4-------------2--|
A|-2-----2----------------2--|
E|-------0----------------0--|

Es un poco dificil, pero escuchenla, traten de seguirla y verán
que está bien.
______________________________________________________


Introducción: (Sobre: Mim - Lam - Sim - Mim)

Mim          Lam           Sim Mim
cuantas veces mas vas a pisar
Mim        Lam             Sim       Mim
mierda creyendo que tu suerte aumentara
Mim       Lam        Sim             Mim
manotazo va manotazo viene y a duras penas
Mim             Lam       Sim   Mim
alcanzas la sortija y te das el tupe de festejar..


Mim           Lam
te reis de ir vagando sin rumbo
Sim                        Mim
y pensas q se juega a los tumbos
Mim           Lam
asi gano y perdio mucha gente
Sim                      Mim
te estas confundiendo al mas pija con
Mim    Lam     Sim   Mim
         el mas demente...

Solm                                                Lam
vas a terminar siendo el que echan del bar por pelmaso
Solm                             Lam    Lam Sim Dom
o vas a terminar cerrando aquel bar
Dom                                          Rem
convenciendo a los dos tres borrachos que quedan
Mim                              DoM       Re5
que la batuta no se hizo para pinchar

Mim           Lam               Sim                 Mim
se comenta un centavo es mejor que tu miserable berretin
Mim              Lam           Sim                Mim
que un peso vale mas que cualquier medio para su fin
Mim               Lam          Sim               Mim
irse a pique por boca de ganso es mas ganso que irse de boca
Mim            Lam               Sim             Mim
entre amor y poder yo no tranzo, tiro porque me toca

Solm                                                Lam
vas a terminar siendo el que echan del bar por pelmaso
Solm                             Lam    Lam Sim Dom
o vas a terminar cerrando aquel bar
Dom                                          Rem
convenciendo a los dos tres borrachos que quedan
Mim                              DoM    Re5
que la batuta no se hizo para pinchar

Solm                                                Lam
quedarte sin preguntas ya no es mas un sueño dorado
Solm                               Lam         Lam Sim Dom
pero el no contestarlas florece tu lado canalla
Dom                                          Rem
que aun asi te queda  muy claro que uno es dueño
Mim                                 DoM      Re5
de lo que dice y esclavo de lo que calla.

-----------------------------------------------

Lucas A Cano
tucma.lac@gmail.com