ACORDES:> F A7 A#7 G#7 G7 C7 B7 F7 E7 D#7 D7 G Dm7 G7 Gm Am
ACORDES:> Fsus4 Gsus4

MODIFICACION A LA TRANSCRIPCION DE
Gaston (get5@hotmail.com)
**********************************************************************

Intro: F A7 A#7 A#7-A7-G#7-G7 C7 C7-B7-A#7 F C7

Fa                      La7
Hay un intruso dentro mio
                      La#7
que se queja y tiene frio
           A#7-A7-G#7-G7
que ya no puede escribir
           C7                  C7-B7-A#7
que miente cuando quiero decir la verdad
                      Fa            Do7
y dice la verdad cuando quiero mentir

Fa                      La7
Ya no se toma nada en serio
                       La#7
la verdad que es un misterio
         A#7-A7-G#7-G7
como pudo entrar en mi
      Do7
a cada paso que da
      C7-B7-A#7
le falta espontaneidad
                Fa
no se tiene confianza
                C7 (Arpegiado)
dice a todo que si

                   La#7
e-----------------------------------
B-----------------6-----------6-----
G-----------------7-----------7-----
D--------------6-----6-----6--------
A-----------------------------------
E----------6------------6-----------
..Y cuando juega a la pelota
        F7    E7-D#7-D7
no se anima a gambetear
      Sol
juega para la tribuna
         C7 (Arpegiado)
no juega para ganar

Fa                        La7
Los granos son un tema menor
                     La#7
pero muestran tambien el
      A#7-A7-G#7-G7
grado de de..ja..dez
        Do7
y ni hablar de los proyectos,
C7-B7-A#7
ya no tiene
                    Fa
se jacta de hacer deportes
                   Do7
todo el dia tocandose

Fa                          La7
Este intruso come que da miedo
                       La#7
y duerme hasta el mediodia
             A#7-A7-G#7-G7
no sé más que hacer con él
         C7                 C7-B7-A#7
con su pereza, su lujuria, su codicia
                   Fa
y los cuatro capitales
                 C7 (Arpegiado)
que le metio lucifer

                   La#7
e-----------------------------------
B-----------------6-----------6-----
G-----------------7-----------7-----
D--------------6-----6-----6--------
A-----------------------------------
E----------6------------6-----------
 Si se cruzan con su mirada
         F7   E7-D#7-D7
dejenlo en su ca.mi.nar
     Sol
pasada la sudestada
             C7 (Arpegiado)
el se va a comunicar...

Fa       Rem7  Sol7        Do7
 Que la culpa...no les carcoma los
Fa     Rem7 Sol7            Do7
huesos...... Ya va a haber tiempo
Fa        Rem7   Sol7       Do7
para las risas...los abrazos y los
Fa    Rem7 Sol7        Do7
besos......déjenlo en su
Fa   Rem7 Sol7          Do7
mundo......un mundo muy poco
   Fa  Rem7 Sol7  Do7
profundo......donde no se
Fa    Rem7          Sol7    Do7
ríe, donde no se llora, donde no se
Fa      Rem7   Sol7         Do7
vive a pleno...ni el presente ni el
F    Dm7 G7(Arpegiado) C7
ahora...

Fa                             La7
Lo único que me enferma es saber
                              La#7
que en la perra vida jamás me voy
   A#7-A7-G#7-G7
a deshacer de él
          C7               C7-B7-A#7
siempre adentro mío fiel a su promesa
                 Fa
de quemarme la cabeza
                    Do7
para que yo sea infeliz

           Solm      Lam
me enferma comprender
    Fsus4 Gsus4     F   C7 F
que forma parte de mí...

Nota:
Todos los acordes se hacen con cejilla,
excepto el C7 al final de cada estrofa

Aqui estan por cualquier duda:

   Fa   La7 La#7 Sol#7  Sol7  Do7  Si7  Fa7  Mi7  Re#7
e--1---5---6---4---3---8---7---8---7---6---
B--1---5---6---4---3---8---7---10--9---8---
G--2---6---7---5---4---9---8---8---7---6---
D--3---5---6---4---3---8---7---10--9---8---
A--3---7---8---6---5---10--9---8---7---6---
E--1---5---6---4---3---8---7---x---x---x---

   D7  G  Dm7  G7  Gm  Am  Fsus4 Gsus4 (C7 al final de la estrofa)

e--5---3---5---3---3---5----1-----3-----0-----
B--7---3---6---3---3---5----1-----3-----1-----
G--5---4---5---4---3---5----3-----5-----3-----
D--7---5---7---3---5---7----3-----5-----2-----
A--5---5---5---5---5---7----1-----3-----3-----
E--x---3---x---3---3---5----1-----3-----x-----

Cualquier duda o corrección comuniquense conmigo a mi mail
¡Saludos!