Solo:
e-0---(0)---0-0-0-0--0---(0)---0-0-0
B-3/5-(5)---3-2-0-0--2/3-(3)---2-0--
G----------------------------------2
Lo q esta en parentesis
se repite 7 veces solo eso nada mas

e-0----0-0-0-0-0-0-0--0-0--0-0------
B-2/3--3-3-3-3-3-3-3--2-0-----------
G--------------------------2-2------

La                         Sim
Contra una pared dejé pintados
                      Re
Nuestros nombres enlazados
      E            A Asus2 Asus4 A Asus2 A
Salpicados con el aerosol


La                          Sim
Junto a una leyenda que decía
                   Re
Escapemos de esta vida,
          E        A Asus2 Asus4 A Asus2 A
Viva el che y los rolLing Stone


Pre-Coro:

G         D     A Asus2 Asus4 A Asus2 A
 Y me aleje de ti
Sol            Re     La     Mi
 Suerte que te perdí  ohhhhhhhhh

Verso

La                            Sim
Fuimos como una tribu de salvajes
                   Re
Defendiendo con coraje
        E        A Asus2 Asus4 A Asus2 A
Lo que dicta el corazón


La                               Sim
Recuerdo bien la tarde en el pasillo
                Re
Que sacaste un cuchillo
      E          A Asus2 Asus4 A Asus2 A
Y probamos el dolor


Pre-Coro:

G         D     A Asus2 Asus4 A Asus2 A
 Y me aleje de ti
Sol            Re     La     Mi
 Suerte que te perdí  ohhhhhhh

Coro:

Re            La        Mi
 Fuiste tan dulce nena
           Fa#m
Pero a la vez perversa
Re               La          Mi
 Siempre me hablabas de morir


Re         La          Mi
 Y te seguí los pasos
          Fa#m
Hasta que tu locura
Re         La           Mi
 Me comenzaba a destruir


[Solo]
e-0----0-0-0-0-0-0-0--0-0-0-0--
B-3/5--5-5-5-5-5-5-5--3-2-0-0--
G------------------------------


e-0---0-0-0-0-0-0-0--0-0--0
B-2/3-3-3-3-3-3-3-3--2-0---
G-------------------------2


e-0----0-0-0-0-0-0-0--0-0--0-0--
B-2/3--3-3-3-3-3-3-3--2-0-------
---------------------------2-2--


e-----------------------0------12----12-12-12-12
B---------------------------12-12h14-14-14-14-14
G-4(5)—4p2---2—4(5)-4-2--14---------------------
D----------4------------------------------------


e---12------------------------------------------
B---12-10h12—10h12-12-12-12-12--10----10--------
G----------------------------------11-----------


e-5----5-5-5-5-5--0----0------------------------
B-5/7--7-7-7-7-5--0/2--2------------------------
G------------------------2-4(5)-4p2---2-4(5)-4-2
D-----------------------------------4-----------

Verso

La                             Sim
Fuimos a una iglesia en madrugada
                    Re
Estabas tan desesperada
       E              A Asus2 Asus4 A Asus2 A
Creo que querías cambiar


La                              Sim
Y como nadie vino a abrir la puerta
                Re
Te diste media vuelta
           E          A Asus2 Asus4 A Asus2 A
Diciendo Dios aquí no estás

Pre-Coro:

G         D     A Asus2 Asus4 A Asus2 A
 Y me aleje de ti
Sol           Re      La     Mi
 Suerte que te perdí  ohhhhhhhhhhhhhhh

Coro:

Re            La        Mi
 Fuiste tan dulce nena
          Fa#m
Pero a la vez perversa
Re               La            Mi
 Siempre me hablabas de morir


Re         La          Mi
 Y te seguí los pasos
          Fa#m
Hasta que tu locura
Re         La           Mi
 Me comenzaba a destruir

Coro:

Re            La        Mi
 Fuiste tan dulce nena
          Fa#m
Pero a la vez perversa
Re               La          Mi
 Siempre me hablabas de morir


Re         La          Mi
 Y te seguí los pasos
          Fa#m
Hasta que tu locura
Re         La           Mi
 Me comenzaba a destruir

me comenzaba a destruir