INTRO:

e|-------------------------------------------------------
B|-12-13-15-15-13-13-12-13----12-13-13-12-12----15v(17)--
G|-------------------------14----------------14----------


e|----------------------------------------------------15-
B|-12-13-15-15-13-13-12-12--------------13/15--13--------
G|-------------------------14-14-12-12--------------15^--

         Lam          Re
Nos conocimos sin saber
             G  G/F#      E
que un cigarrillo y un café
          Am            D             G – D - G
serían excusas para el tiempo de los dos.

e|-----------------------------------
B|---10------------------------------
G|--------12^------------------------

       Lam         Re
Voy a salir a caminar
                  G    G/F#   E
y aunque es muy grande la ciudad
       Am             D             G – D - G
yo presiento que nos vamos a encontrar.

e|----------------------------------
B|--------12---10---8---------------
G|---14/12----9----7----------------

     Fa                  Mi
Porqué mantuviste encendida
               Lam
la chispa de nuestro amor

e|----------------------------
B|---10-----------------------
G|--------12^-----------------

     Re#       Re       Dom    La#      Lam      Re
yo ahora te llevo en cada latido de mi corazón.

e|----------------------------
B|---15^----------------------
G|----------------------------


       Lam        Re            Sol    Sim  La#m
Yo necesito tu amor dame tu amor oh oh oh
       Lam        Dom    Lam       Re
yo necesito tu amor igual que ayer.

e|----------------------------
B|---------15^-15^------------
G|---12-----------------------

          Lam            Re
Cómo explicarte la emoción
             G    G/F#     E
cuando escuché por fin tu voz
         Lam           Re          Sol    -    Re - Sol
quedo desierta la ciudad solo para los dos.


e|-----------------------------------------------------
B|-----15^-[17h15]-[17h15]-[17h15]-[17h15]-[17h15]-15^-
G|-----------------------------------------------------

         Lam           Re
Otra vez en el mismo bar
         G    G/F#    E
un cigarrillo y un café
          Lam             Re            Sol
viejas excusas de un encuentro sin final


e|-----15-17^--17-15-17^---15-14-----
B|---15-------------------------15---
G|-----------------------------------

     Fa                  Mi
Porqué mantuviste encendida
              Lam
la chispa de nuestro amor
     Re#       Re      Dom     La#      Lam      Re
yo ahora te llevo en cada latido de mi corazón.

e|-----------------------------------
B|--15^------------------------------
G|-----------------------------------

       Lam        Re            Sol    Sim  La#m
Yo necesito tu amor dame tu amor oh oh oh
       Lam        Dom   Lam        Re
yo necesito tu amor igual que ayer.

SOLO:

e|----------------------------------
B|-------------15v-15-15v-15--------
G|-------12-14---------------14v(16)
D|-12-14----------------------------


e|-----------------------14p15p17--
B|----------------14p15p17---------
G|-14h1214--14p16------------------
D|---------------------------------


e|-15-14-15-17----------------------
B|-------------15-15V-15V-----------
G|--------------------------14V(16)-
D|----------------------------------


e|---------------------------------
B|---------------------------------
G|14h12p14--------12-14--12--------
D|----------12-12-----------14^-12-


e|--------------------------------------
B|------------------15-15v-15-15v-15-15v
G|--------------------------------------
D|--------------------------------------
A|-12^-10-12-----10---------------------
E|------------12------------------------


e|-----------12----------------
B|--------12----15-12----------
G|-14v-12-------------12s14----
D|-----------------------------
A|-----------------------------
E|-----------------------------


e|---------------------------12------
B|-------------------------12--12-15v
G|-14vh12p14-14vh12p14-14v-----------


e|---------------------------------
B|-15p17h15--12p15h12--------------
G|-------------------14-12p14h12---


D|-14-12p14h12-----------------
A|------------14-12p14h12------
E|-----------------------15h12-


   Si                     Rem  Do
parece que al final los dos

e|-----------------------------
B|--12-------------------------
G|---------------14^--------12—

  Lam                    Re
pudimos reaccionar,  supimos reaccionar.

e|-----------------------------------------
B|--------------------------------12--15^--
G|-----------12^--------—------------------

    Lam         Re
Recuperemos el lugar,
           G    G/F#    E
lugar que nadie mas llenó
           Lam            Re          Sol
y con las flores del jardín florecerá el amor

e|----------------------------------------
B|-----------12-15^----12^----12----------
G|----------------------—---14--12--------

     Fa                  Mi
Porqué mantuviste encendida
              Lam
la chispa de nuestro amor
     Re#       Re      Dom     La#      Lam      Re
yo ahora te llevo en cada latido de mi corazón.

e|--------------------------------------------------
B|--15^-[17h15]-[17h15]-[17h15]-[17h15]-[17h15]-15^-
G|--------------------------------------------------
D|--------------------------------------------------

       Lam        Re            Sol   Sim  La#m
Yo necesito tu amor dame tu amor oh oh oh
       Lam        Dom   Lam         Re
yo necesito tu amor igual que ayer. (Bis)


       Lam           Re        Sol           Sim La#m
Yo necesito tu amor, yo necesito tu amor
       Lam          Dom  Lam        Re
Yo necesito tu amor, igual que ayer. (Bis)
e|-----------------------------------------
B|--------12---15^--------—------------------


Final : Am – D – G – G/F# - E – Am – D - G

e|------------------------------------------------------
B|-12-13-15-15-13-13-12-13----12-13-13-12-12----15v(17)-
G|-------------------------14----------------14---------


e|-----------------------------------------------------------
B|-12-13-15-15-13-13-12-12-14-14------12-13-15-15-13-13-12-13
G|-------------------------------12-12-----------------------


e|------------19-19-----------------
B|------17-20------20-17-20-17p20-15
G|-18p19----------------------------


e|----------------------------------
B|-----------------------------12-12
G|-14v(16)-14v(16)-14-12----12-12-12