Arriba se señala la letra y abajo lo que se toca.

Una rata vieja
e:-3-3-3-1-0-0--
B:--------------

 Que era planchadora
e:-5-5-5-3-1-1--
B:--------------

 Por planchar su ropa
e:-1-1-1-0------
B:---------3-3--

 Se quemo la cola
e:-3-5-3-1-0-0--
B:--------------

 Se puso pomada
e:-3-3-3-1-0-0--
B:--------------

 Se amarro un trapito
e:-5-5-5-3-1-1--
B:--------------

 Y ala pobre rata
e:-1-1-1-0------
B:---------3-3--

 Le quedo un rabito
e:-3-5-3-1-0-0--
B:--------------