e||-------0-------|----------0----|--0--1--1--1--0--0--0-----0------|
B||----1-----1--1-|----1--1-----3-|-----------------------3—----3--1|
G||-0-------------|-0-------------|---------------------------------|
D||---------------|---------------|---------------------------------|
A||---------------|---------------|---------------------------------|
E||---------------|---------------|---------------------------------|

e|----------0---|-----------0-----|--0--1--1--1--0--0--0-----0------|
B|----1--1----1-|-----1--1-----3--|-----------------------3—----3--1|
G|-0------------|--0--------------|---------------------------------|
D|--------------|-----------------|---------------------------------|
A|--------------|-----------------|---------------------------------|
E|--------------|-----------------|---------------------------------|

e|----------0-------|----------0----|---1--1--1--0--0--0-----0------|
B|----1--1-----1--1-|----1--1-----3-|-3-------------------3-----3--1|
G|-0----------------|-0-------------|-------------------------------|
D|------------------|---------------|-------------------------------|
A|------------------|---------------|-------------------------------|
E|------------------|---------------|-------------------------------|


e|--------0----|-------0-----|-0--1--1--1--0--0--0-----0-------|
B|----1------1-|----1-----3--|----------------------3-----3—1--|
G|-0-----------|-0-----------|---------------------------------|
D|-------------|-------------|---------------------------------|
A|-------------|-------------|---------------------------------|
E|-------------|-------------|---------------------------------|

es mi primera tablatura espero que le guste no tiene erro pero si
le consiguen uno me avisan