Intro:
Re / Rem / La Fa# / Re / Rem / Mi / La / Re / Mi

e/-14-12-----12----------13-(13)-12h13-12-12h10-10/9---8-9-10-9-8-9-14
B/--------15----15-14-15----------------------------------------------
G/--------------------------------------------------------------------
D/--------------------------------------------------------------------
A/--------------------------------------------------------------------
E/--------------------------------------------------------------------

e/-------12-10-10/9-999/7--6-7-9-7-6-7--10-9-7-5-4-5-7-8/7-5-(5)-
B/-14-----------------------------------10-----------------------
G/-----9--------------------------------10-----------------------
D/---------------------------------------------------------------
A/---------------------------------------------------------------
E/---------------------------------------------------------------

e/---12-9-10h9-------------12-
B/-------------10-9-7---------
G/-9------------------10-9----
D/----------------------------
A/----------------------------
E/----------------------------

     La
hace falta que te diga
       DO#                       F#m/Em7/A7
que me muero por tener algo contigo
        Re
Es que no te has dado cuenta
       Fa#7                        Sim
de lo mucho que me cuesta ser tu amigo
       Re                   Rem
yo no puedo acercarme a tu boca
        La                   Fa#7
sin deseartela de una manera loca
     Sim                Rem
Necesito controlar tu vida
      Mi
saber   quien te besa, quien te abriga.

     La
hace falta que te diga
       DO#                       F#m/Em7/A7
que me muero por tener algo contigo
        Re
Es que no te has dado cuenta
       Fa#7                        Sim
de lo mucho que me cuesta ser tu amigo
          Re              Rem
Ya me quedan muy pocos caminos
        La                     Fa#7
aunque pueda parecerte en desatino
       Rem                    Mi
no quisiera yo morirme sin tener
         La
algo contigo.


Punteo...
LA/DO#/F#m/A/D/F#/Bm

e/-----------12-9-10h9-------------12-/-12-12-9--7-5/4-----------9-7-9
B/---------------------12-10-9-7------/----------------7-6-7-8-9------
G/---------9---------------------9----/-------------------------------
D/-----6-9----------------------------/-------------------------------
A/-4-7--------------------------------/-------------------------------
E/------------------------------------/-------------------------------

e/-7-6-7-55-9h7h5--------------------------------------14-12-14h12----
B/----------------10-9-8-7h8h7-------------8-10-(8h10)----------------
G/-----------------------------9-8-9-7-6-9----------------------------
D/--------------------------------------------------------------------
A/--------------------------------------------------------------------
E/--------------------------------------------------------------------

e/-10-9-10-10---------
B/------------10-9-10-
G/--------------------
D/--------------------
A/--------------------
E/--------------------

       Re                Rem
Ya no puedo continuar espiando
       La                    Fa#
dia y noche tu llegar adivinando
       Sim                   Si7
Ya no se con que inocente excusa
              Mi Fa#
pasar por tu caaasa
     Re               Rem
Me quedan muy pocos caminos
         La                    Fa#7
aunque pueda parecerte un desatino
       Rem                    Mi
no quisiera yo morirme sin tener
         Re   Rem
algo contigo
        La         Fa#         Re     Mi   La
sin tener algo contigo, Sin tener algo contigo.